Autumn Effect
10 Years
Acordes

Subida por AARONLIENQUEO


Más Versiones
Ver. 2

Cambiar Cifrado
Americano Latino

Cambiar Tonalidad
-1 +1

Partir Pantalla Imprimir FAQ

+A
-A
Atenção à afinação! São duas guitarras!

Guitar 1 Intro/verso

e|---------5-1---3-6-3-5-1---3-------------------------|
B|-------3-----3-----------3---------------------------|
G|-----2-----------------------------------------------|
D|---0-------------------------------------------------|
A|-----------------------------------------------------|
D|-----------------------------------------------------|

Guitar 2 verso (Escute para obter o tempo exato)
e|----10--13----------------------------------------13-----------|
B|-------------15--16--15------------------------------15--16--15|
G|----------------------------or sometimes--just-----------------|
D|---------------------------------------------------------------|
A|---------------------------------------------------------------|
D|---------------------------------------------------------------|

Ponte
e|--------------------------------------------------------------------------------|
B|--------------------------------------------------------------------------------|
G|-----------------------------------------------1010-10---------12-12-12---------|
D|-12/---0-0--0-0-0-x--0-0--0-0-0-x--0-0--0-0-0---8-8-8-121212---10-10-10-14-14-14|
A|-12/---0-0--0-0-0-x--0-0--0-0-0-x--0-0--0-0-0---8-8-8--8-8-8---10-10-10-10-10-10|
D|-12/---0-0--0-0-0-x--0-0--0-0-0-x--0-0--0-0-0---8-8-8--8-8-8---10-10-10-10-10-10|
pm.......... .......... ..........

Outro: "Silent beauty no one cares
e|-----------------------------------------------------------------|
B|-------------------------3---------------------------------------|
G|-----10----12------------2--------------10----------------12-----|
D|-----8-----10------------0---------------8----------------10-----|
A|-----8-----10------------0---------------8----------------10-----|
D|-----8-----10------------0---------------8----------------10-----|

Silent ending no one is there"
e|---------------------------------------------------------------------------|
B|---------3-------------------------------------------------------------3---|
G|---------2--------------10---12----------10-----------------12---------2---|
D|---------0--------------8----10----------8------------------10---------0---|
A|---------0--------------8----10----------8------------------10---------0---|
E|---------0--------------8----10----------8------------------10---------0---|

| slide
| x Nota "fantasma"

[email protected]

ACORDES PARA GUITARRA

PIANO UKELELE


COMENTARIOS

Aún no hay comentarios,

¡escribe el primero!

Escribe una pregunta, duda o comentario sobre esta canción, te responderemos a la brevedad.

Las más tocadas de 10 Years

Toca una Canción al Azar de 10 Years