Just Cant Win
10 Years
Acordes

Subida por JesusBrizuela
Álbum: Division ( 2008)


Más Versiones
Ver. 2 Ver. 3

Cambiar Cifrado
Americano Latino

Cambiar Tonalidad
-1 +1

Partir Pantalla Imprimir FAQ

+A
-A
Intro:
Gb|--------------------------------------------------------------------------------|
Db|--------------------------------------------------------------------------------|
Ab|-3-3-3-3-3-3-3-3-1-1-1-1-1-1-1-1h3-3-3-3-3-3-3----------------------------------|
Db|------------------------------------------------6-6-6-6-6-6-6-6-6-6-6-6-6-6-6-6-|

Gb|----------------------------------|
Db|----------------------------------|
Ab|------------------------------1/5-|
Db|-3-3-3-3-3-3-3--3-1-1--1-1-0------|

Verso:
Gb|----------------------------------------------------------------------|
Db|----------------------------------------------------------------------|
Ab|-1~----9-5-3--------1--7-5-7--3--------3-5-0-1---7-5-7--9-5-3---------|
Db|--------------3-5---------------5--3--------------------------0-3-----|

Intro 2x:
Gb|--------------------------------------------------------------------------------|
Db|--------------------------------------------------------------------------------|
Ab|-3-3-3-3-3-3-3-3-1-1-1-1-1-1-1-1h3-3-3-3-3-3-3----------------------------------|
Db|------------------------------------------------6-6-6-6-6-6-6-6-6-6-6-6-6-6-6-6-|

Gb|----------------------------------|
Db|----------------------------------|
Ab|------------------------------1/5-|
Db|-3-3-3-3-3-3-3--3-1-1--1-1-0------|

(Refrão)

Ponte:
Gb|---------------------------------------------------|
Db|-----------------------------------9-10-12-10------|
Ab|-7--9-7-9-7-7-5-5-3-3-7--9-7-9-7-7------------10-9-|
Db|---------------------------------------------------|

ACORDES PARA GUITARRA

PIANO UKELELE


COMENTARIOS

Aún no hay comentarios,

¡escribe el primero!

Escribe una pregunta, duda o comentario sobre esta canción, te responderemos a la brevedad.

Las más tocadas de 10 Years

Toca una Canción al Azar de 10 Years