One More Day
10 Years
Acordes

Subida por Carito
Álbum: Feeding the Wolves ( 2010)


Más Versiones
Ver. 2

Cambiar Cifrado
Americano Latino

Cambiar Tonalidad
-1 +1

Partir Pantalla Imprimir FAQ

+A
-A
Intro:

D|------------------------------------------------------------------------|
A|------------------------------------------------------------------------|
F|---0--------------------------------------------------------------------|
C|-----4---5--5/7-4--4--4-4-4-0-0-0-0-------------------------------------|
G|-2-----2-2---------5--5-5-5-5-5-5-5-------------------------------------|
C|---------2---------5--5-5-5-5-5-5-5-------------------------------------|

D|------------------------------------------------------------------------|
A|------------------------------------------------------------------------|
F|---0--------------------------------------------------------------------|
C|-----4---5--5/7-4--5-5-5-5-5-5-5-5-5-5-5-5-7-7-7-7----------------------|
G|-2-----2-2---------5-5-5-5-5-5-5-5-5-5-5-5-7-7-7-7----------------------|
C|---------2---------5-5-5-5-5-5-5-5-5-5-5-5-5-7-7-7----------------------|
x x x x x x x x x x x x x x x x

Refrão:
D|------------------------------------------------------------------------|
A|------------------------------------------------------------------------|
F|------------------------------------------------------------------------|
C|-9---9--9-9-2---2--2-2-7---7--7-7--7-7-7-7------------------------------|
G|-9---9--9-9-2---2--2-2-7---7--7-7--7-7-7-7------------------------------|
C|-9---9--9-9-2---2--2-2-7---7--7-7--7-7-7-7------------------------------|

(guitarra 1)
D|------------------------------------------------------------------------|
A|------------------------------------------------------------------------|
F|------------------------------------------------------------------------|
C|-5---5--5--5-5-5---2---2--2--2-2-2---0---0--0--0-0-0---7---7--7--7-7-7-7|
G|-5---5--5--5-5-5---2---2--2--2-2-2---0---0--0--0-0-0---7---7--7--7-7-7-7|
C|-5---5--5--5-5-5---2---2--2--2-2-2---0---0--0--0-0-0---7---7--7--7-7-7-7|

(guitarra 2)
D|-14-------14-------14---------------------------------------------------|
A|----15-------15---------------------------------------------------------|
F|-------16-------16----16------------------------------------------------|
C|------------------------------------------------------------------------|
G|------------------------------------------------------------------------|
C|------------------------------------------------------------------------|

Ponte:

D|------------------------------------------------------------------------|
A|------------------------------------------------------------------------|
F|------------------------------------------------------------------------|
C|-9-9-9-9---11-11-11-11---12--7--2--4--5--2--7---------------------------|
G|-9-9-9-9---11-11-11-11---12--7--2--4--5--2--7---------------------------|
C|-9-9-9-9---11-11-11-11---12--7--2--4--5--2--7---------------------------|

D|------------------------------------------------------------------------|
A|------------------------------------------------------------------------|
F|------------------------------------------------------------------------|
C|-9-9-9-9---11-11-11-11---12--7--2--2--2-2--2-2--2-2-7--7--7-------------|
G|-9-9-9-9---11-11-11-11---12--7--2--2--2-2--2-2--2-2-7--7--7-------------|
C|-9-9-9-9---11-11-11-11---12--7--2--2--2-2--2-2--2-2-7--7--7-------------|

Pré-Refrão:
D|---------------------0--------------------------------------------------|
A|---------------------0--------------------------------------------------|
F|---0-----------------9--------------------------------------------------|
C|-----4---5--5------7-7--------------------------------------------------|
G|-2-----2-2--2----7---7--------------------------------------------------|
C|---------2--2--7-----7--------------------------------------------------|

D|------------------------------------------------------------------------|
A|------------------------------------------------------------------------|
F|---0--------------------------------------------------------------------|
C|-----4---5--5/7-4--4-----------------------------------------------------|
G|-2-----2-2---------5----------------------------------------------------|
C|---------2---------5----------------------------------------------------|

ACORDES PARA GUITARRA

PIANO UKELELE


COMENTARIOS

Aún no hay comentarios,

¡escribe el primero!

Escribe una pregunta, duda o comentario sobre esta canción, te responderemos a la brevedad.

Las más tocadas de 10 Years

Toca una Canción al Azar de 10 Years