Riptide
10 Years
Acordes

Subida por rosiebittar2905
Álbum: Into the Half Moon ( 2001)



Cambiar Cifrado
Americano Latino

Cambiar Tonalidad
-1 +1

Partir Pantalla Imprimir FAQ

+A
-A
(intro)(Slight distortion)                   (4x)
E|----------------------------------------------|
B|----------------------------------------------|
G|----------------------------------------------|
D|----------------------------------------------|
A|-0-0-3-3-5-5-5-5-6-0---0-0-3-3-5-5-5-5-6-0-8-0|
D|-0-0-3-3-5-5-5-5-6-0---0-0-3-3-5-5-5-5-6-0-8-0|

E|------------------------------------------------|
B|------------------------------------------------|
G|------------------------------------------------|
D|-0-0-3-3-5-5-5-5-6-0---0-0-3-3-5-5-5-5-6-0-0-6-0|
A|-0-0-3-3-5-5-5-5-6-0---0-0-3-3-5-5-5-5-6-0-0-6-0|
D|-0-0-1-1-3-3-3-3-6-0---0-0-1-1-3-3-3-3-6-0-0-6-0|

E|------------------------------------------------------------|
B|------------------------------------------------------------|
G|------------------------------------------------------------|
D|-0-0-3-3-5-5-5-5-6-0---0-0-3-3-5-5-5-5-6-0-0-6-0-0-6-0-0-6-0|
A|-0-0-3-3-5-5-5-5-6-0---0-0-3-3-5-5-5-5-6-0-0-6-0-0-6-0-0-6-0|
D|-0-0-1-1-3-3-3-3-6-0---0-0-1-1-3-3-3-3-6-0-0-6-0-0-6-0-0-6-0|

(versos 1 e 2)
E|----------------------|----------------------|--------------|----|--|
B|----------------------|----------------------|--------------|----|--|
G|----------------------|----------------------|--------------|----|--|
D|---5/7-5--------------|---5/7-5-----------0-0|---5/7-5---0-0|-0-0|-0|
A|-0-------6-5----------|-0-------6-5-------0-0|-0---------0-0|-0-0|-0|
D|-------------8-7-5-0-0|-------------8-7-5-0-0|-----------0-0|-0-0|-0|

(refrão)

(ponte 8x)
E|----------------------------|---------|
B|----------------------------|---------|
G|----------------------------|---------|
D|-5-5-5-5-55-0-x-8~~~~~~~~~~~|-xxxxxxxx|
A|-5-5-5-5-55-0-x-8~~~~~~~~~~~|-xxxxxxxx|
D|-3-3-3-3-33-0-x-8~~~~~~~~~~~|-xxxxxxxx|

(3x)
E|-----------------------|--------------------------------|
B|-----------------------|--------------------------------|
G|-----------------------|--------------------------------|
D|-0-0-0-0-1-0---0000-1-0|-0-0-0-0-1-1-1-1-3-3-3-3-4-4-4-4|
A|-0-0-0-0-1-0---0000-1-0|-0-0-0-0-1-1-1-1-3-3-3-3-4-4-4-4|
D|-0-0-0-0-1-0---0000-1-0|-0-0-0-0-1-1-1-1-3-3-3-3-4-4-4-4|

(3x)
E|-----------------------|--------------------------------|
B|-----------------------|--------------------------------|
G|-----------------------|--------------------------------|
D|-0-0-0-0-1-0---0000-1-0|-0-0-0-0-1-1-1-1-3-3-3-3-4-4-4-4|
A|-0-0-0-0-1-0---0000-1-0|-0-0-0-0-1-1-1-1-3-3-3-3-4-4-4-4|
D|-0-0-0-0-1-0---0000-1-0|-0-0-0-0-1-1-1-1-3-3-3-3-4-4-4-4|

(4x) (solo) (4x)
E|--------------------------------|--------------------------------|
B|--------------------------------|--------------------------------|
G|--------------------------------|--------------------------------|
D|-0-0-0-0-1-1-1-1-3-3-3-3-4-4-4-4|-0-0-0-0-1-1-1-1-3-3-3-3-4-4-4-4|
A|-0-0-0-0-1-1-1-1-3-3-3-3-4-4-4-4|--------------------------------|
D|-0-0-0-0-1-1-1-1-3-3-3-3-4-4-4-4|--------------------------------|

E|--------------------------|
B|--------------------------|
G|--------------------------|
D|-1-1-0-1-1-0-1-1-0-4-4-4-0|
A|-1-1-0-1-1-0-1-1-0-4-4-4-0|
D|-1-1-0-1-1-0-1-1-0-4-4-4-0|

ACORDES PARA GUITARRA

PIANO UKELELE


COMENTARIOS

Aún no hay comentarios,

¡escribe el primero!

Escribe una pregunta, duda o comentario sobre esta canción, te responderemos a la brevedad.

Las más tocadas de 10 Years

Toca una Canción al Azar de 10 Years