Compartir


Imprimir FAQ
+A
-A

Texto

Desplazamiento

Transportador

Color de Fondo

Archivos

-A
+A
from "Killing All That Holds You"

Tuning:
Db Ab Db Gb Db Db

============================================================
Intro and Verses

Db|------------------------------------|
Db|------------------------------------|
Gb|------------------------------------|
Db|--0-2----0-2----0-2---0-0---12~~~---|
Ab|--0-2----0-2----0-2---0-0---12~~~---|
Db|--0-2----0-2----0-2---0-0-----------|

============================================================
Chorus

Guitar 1: Play 3x

Db|--------------------------------------|
Db|--------------------------------------|
Gb|--------------------------------------|
Db|--9-9-9-9------------97/7---12-12-12-|
Ab|--7-7-7-7---0-5h7p0--75/7---10-10-10-|
Db|--------------------------------------|

Db|--------------------------------------|
Db|--------------------------------------|
Gb|--------------------------------------|
Db|--9-9-9-9------------97/7---10-10-10-|
Ab|--7-7-7-7---0-5h7p0--75/7---8--8--8--|
Db|--------------------------------------|

Guitar 2: Comes in after 1st Guitar 1 riff, play 2x

Db|--------------------------------------|
Db|--------------------------------------|
Gb|--------------------------------------|
Db|--2-2-2-2--------------0h2p0-5--5--5--|
Ab|--2-2-2-2--------------0h2p0-5--5--5--|
Db|--2-2-2-2--------------0h2p0-5--5--5--|

Db|--------------------------------------|
Db|--------------------------------------|
Gb|--------------------------------------|
Db|--2-2-2-2--------------0h2p0-3--3--3--|
Ab|--2-2-2-2--------------0h2p0-3--3--3--|
Db|--2-2-2-2--------------0h2p0-3--3--3--|

===========================================================
Chorus Outro

After 1st chorus, play 2x, then ending 1
After 2nd chorus, play 3x, then ending 2

Db|------------------------------------|
Db|------4-----2-----------------------|
Gb|----4-----2-------0---0--------0----|
Db|--2-----0-------2-------2----4---4--|
Ab|--------------3-----3-----/5--------|
Db|------------------------------------|

Ending 1
Db|------|
Db|------|
Gb|------|
Db|--2---| (hold and fade while guitar 2 plays intro again)
Ab|------|
Db|------|

Ending 2
Db|------------------|
Db|------4-----2-----|
Gb|----4-----2-------|
Db|--2-----0-----2---|
Ab|--------------3---|
Db|------------------|

===========================================================
Bridge

Db|------------------|
Db|------4-----2-----|
Gb|----4-----2-------| play 4x
Db|--2-----0-----2---|
Ab|--------------3---|
Db|------------------|

Db|------------------------------------------|
Db|------------------------------------------|
Gb|--------------7---------------------------| play 2x
Db|--9-9-9-7-7-7-5-----5-5-5-4-4-4-2---0h2-2-|
Ab|--9-9-9-7-7-7-5-----5-5-5-4-4-4-2---0h2-2-|
Db|--9-9-9-7-7-7-5-----5-5-5-4-4-4-2---0h2-2-|

Db|----------------------|
Db|----------------------|
Gb|----------------------|
Db|--0-2--2-3--0-2--2-3--|
Ab|--0-2--2-3--0-2--2-3--|
Db|--0-2--2-3--0-2--2-3--|

===========================================================
Outro Chorus (both guitars)

Db|--------------------------------------|
Db|--------------------------------------|
Gb|--------------------------------------|
Db|--2-2-2-2--------------0h2p0-5--5--5--|
Ab|--2-2-2-2--------------0h2p0-5--5--5--|
Db|--2-2-2-2--------------0h2p0-5--5--5--|

Db|--------------------------------------|
Db|--------------------------------------|
Gb|--------------------------------------|
Db|--2-2-2-2--------------0h2p0-3--3--3--|
Ab|--2-2-2-2--------------0h2p0-3--3--3--|
Db|--2-2-2-2--------------0h2p0-3--3--3--|

Db|--------------------------------------|
Db|--------------------------------------|
Gb|--------------------------------------|
Db|--2-2-2-2--------------0h2p0-5--5--5--|
Ab|--2-2-2-2--------------0h2p0-5--5--5--|
Db|--2-2-2-2--------------0h2p0-5--5--5--|

Db|--------------------------------------|
Db|--------------------------------------|
Gb|--------------------------------------|
Db|--2-2-2-2--------------0h2p0-3--3--3--|
Ab|--2-2-2-2--------------0h2p0-3--3--3--|
Db|--2-2-2-2--------------0h2p0-3--3--3--|

Db|-----------|
Db|-----------|
Gb|-----------|
Db|--2-2-2-2--|
Ab|--2-2-2-2--|
Db|--2-2-2-2--|

HERRAMIENTAS ACORDESWEB:


LETRA DE LA CANCIÓN:

Ver la letra sola (sin acordes)

OTRAS VERSIONES DE LA MISMA CANCIÓN:

Ver. 2

DESCARGAR PDF / IMPRIMIR CANCIÓN



ACORDES PARA GUITARRA

PIANO UKELELE


TOP 20: Las más tocadas de 10 Years


Toca una Canción al Azar de 10 Years

Acordes

Cerrar

10.19


165