Compartir


Imprimir FAQ
+A
-A

Texto

Desplazamiento

Transportador

Color de Fondo

Archivos

-A
+A
from "The Autumn Effect"
Tuning:
Db Ab Db Gb Bb Eb

======================================================
Intro:

Eb|----------------------------------------------------------------|
Bb|----------------------------------------------------------------|
Gb|---------------0-----------------0------------------------------|
Db|-----7-------------7-----------------7------------7---8p7----7--|
Ab|---8---------8---8-------8-----8---8------8-----7---7-----10----|
Db|----------10----------10-----8----------8-----7-----------------|

Eb|-------------------------------------------------------------------------|
Bb|-------------------------------------------------------------------------|
Gb|------------------------0-----------------0------------------------------|
Db|----------7-----------------7-----------------7------------7---8p7----7--|
Ab|----0-8-0----0-8------8---8-------8-----8---8------8-----7---7-----10----|
Db|--0----------------10----------10-----8----------8-----7-----------------|

======================================================
Verses:

Guitar 1 -
Eb|--13------15-----8-----10---10-12-13-12-10------|
Bb|--13------12-----8-----10-------------------13--|
Gb|------------------------------------------------| play 4x
Db|------------------------------------------------|
Ab|------------------------------------------------|
Db|------------------------------------------------|

Guitar 2 (comes in after Guitar 1 plays 2x, play whole section 2x) -
Eb|---------------------------------------|
Bb|---------------------------------------|
Gb|---------------------------------------| play 3x
Db|--------15----15----------14----14-----|
Ab|-----12----12----12----12----12----12--|
Db|--12----------------12-----------------|

Eb|---------------------------------------|
Bb|---------------------------------------|
Gb|--------------------------------12-14--|
Db|--------15----15----------14-15--------|
Ab|-----12----12----12----12--------------|
Db|--12----------------12-----------------|

======================================================
Chorus:

Eb|---------------------------------------------|
Bb|---------------------------------------------|
Gb|----10-10---10------12-12---12---------------| play 4x
Db|--------------------------------8-8-/10-5-5--|
Ab|----8--8----8-------10-10---10--8-8-/10-5-5--|
Db|--0-------0-------0-------0-----8-8-/10-5-5--|

======================================================
Bridge:

Eb|-------------------------------------------------------------------------|
Bb|-------------------------------------------------------------------------|
Gb|------------------------0-----------------0------------------------------|
Db|----------7-----------------7-----------------7------------7---8p7----7--|
Ab|----0-8-0----0-8------8---8-------8-----8---8------8-----7---7-----10----|
Db|--0----------------10----------10-----8----------8-----7-----------------|

Play 4x, then -

Eb|----------------------------|
Bb|----------------------------|
Gb|----------------------------|
Db|-------------------------7--|
Ab|------8---8-------7-8-10----|
Db|--0-7---7---7-0-7-----------|

======================================================
Outro Chorus:

Chorus:

Eb|---------------------------------------------|
Bb|---------------------------------------------|
Gb|----10-10---10------12-12---12---------------| play 4x
Db|--------------------------------8-8-/10-5-5--|
Ab|----8--8----8-------10-10---10--8-8-/10-5-5--|
Db|--0-------0-------0-------0-----8-8-/10-5-5--|

Eb|-------|
Bb|-------|
Gb|-------|
Db|---0---|
Ab|---0---|
Db|---0---|

HERRAMIENTAS ACORDESWEB:


LETRA DE LA CANCIÓN:

Ver la letra sola (sin acordes)

OTRAS VERSIONES DE LA MISMA CANCIÓN:

Ver. 2

DESCARGAR PDF / IMPRIMIR CANCIÓN



ACORDES PARA GUITARRA

PIANO UKELELE


TOP 20: Las más tocadas de 10 Years


Toca una Canción al Azar de 10 Years

Acordes

Cerrar

22.43


182