Angelic
10 Years
Acordes

Subida por Pelonete213
Álbum: Into the Half Moon ( 2001)


Más Versiones
Ver. 2

Cambiar Cifrado
Americano Latino

Cambiar Tonalidad
-1 +1

Partir Pantalla Imprimir FAQ

+A
-A
(intro)                          (4x)
E|----------------------------------|
B|----------------------------------|
G|----------------------------------|
D|----------------------------------|
A|-0-8-8-5-7h/10-10-8-8/12-12-15-15|
D|-0-0-0-0-----0--0-0-0-----0--0--0-|

(verso 1) (8x)
E|----------------------------------|
B|----------------------------------|
G|----------------------------------|
D|----------------------------------|
A|-0-8-8-5-7h/10-10-8-8/12-12-15-15|
D|-0-0-0-0-----0--0-0-0-----0--0--0-|

(refrão) (3x)
E|-------------------------------------------------------------------------|
B|-------------------------------------------------------------------------|
G|-----------------------5/7-7-7-7-7-7/9-9-9-9-9-9/10-10-10-10-10-10/15-15|
D|-3-3-3-3-3-3-3-5-3-2~~-5/7-7-7-7-7-7/9-9-9-9-9-9/10-10-10-10-10-10/15-15|
A|-3-3-3-3-3-3-3-5-3-2~~---------------------------------------------------|
D|-1-1-1-1-1-1-1-3-1-2~~---------------------------------------------------|

(2x)
E|-----------------------|------------------------------|
B|-----------------------|------------------------------|
G|-----------------------|-9-910h9p-9-9-----------------|
D|-3-3-3-3-3-3-3-5-3-2~~0|--------------10/12-127-7---0|
A|-1-1-1-1-1-1-1-5-3-2~~0|------------------------------|
D|-1-1-1-1-1-1-1-3-1-2~~0|---------------------------0--|

(ponte) (3x)
E|---------------------------------------------------------------|
B|-15-15-15-13-13-13-----------15-15-15-13-13-13-----------------|
G|-14-14-14-12-12-12-9/10~~~---14-14-14-12-12-12-9/10-10-10-12~~~|
D|-12-12-12-10-10-10-9/10~~~---12-12-12-10-10-10-9/10-10-10-12~~~|
A|-12-12-12-10-10-10-7/-8~~~---12-12-12-10-10-10-7/-8--8--8-10~~~|
D|---------------------------------------------------------------|

E|---------------------------|
B|-15-15-15-13-13-13---------|
G|-14-14-14-12-12-12-9/10~~--|
D|-12-12-12-10-10-10-9/10~~-0|
A|-12-12-12-10-10-10-7/-8~~-0|
D|--------------------------0|

(outro) (3x)
E|-------------------------|--------------------------|
B|-------------------------|--------------------------|
G|-9-9-10h9p-9-9-----------|-9-9-10h9p-9-10-10/12-10-9|
D|---------------10/12-127|--------------------------|
A|-------------------------|--------------------------|
D|-------------------------|--------------------------|

E|-----------------------------------------------------|
B|-----------------------------------------------------|
G|-9-9-10h9p-9-9--------------9-9-10h9p-9-10-10/12-10-9|
D|---------------10/12-127----------------------------|
A|-----------------------------------------------------|
D|-----------------------------------------------------|

ACORDES PARA GUITARRA

PIANO UKELELE


COMENTARIOS

Aún no hay comentarios,

¡escribe el primero!

Escribe una pregunta, duda o comentario sobre esta canción, te responderemos a la brevedad.

Las más tocadas de 10 Years

Toca una Canción al Azar de 10 Years