The Recipe
10 Years
Acordes

Subida por Williamaeror
Álbum: The Autumn Effect ( 2005)



Cambiar Cifrado
Americano Latino

Cambiar Tonalidad
-1 +1

Partir Pantalla Imprimir FAQ

+A
-A


Ver solo la LETRA
intro x2   (x4)            (x4)
eb(--10----10----)(--13----13----)
bb(-----11-------)(-----11-------)
gb(-----------12-)(-----------12-)
db(--------------)(--------------)
ab(--------------)(--------------)
Db(--------------)(--------------)

verse/chorus (x4) (x4) (x4)
eb(---------)(---------)(---------)(---------)
bb(---------)(---------)(---------)(---------)
gb(--777-77-)(--555-55-)(--333-33-)(--77-777-)
db(--777-77-)(--555-55-)(--333-33-)(--77-777-)
ab(--555-55-)(--333-33-)(--111-11-)(--55-555-)
Db(---------)(---------)(---------)(---------)

chorus(lead)
eb(-------------------)
bb(--5-6--888-8/7-6---)
gb(-------------------)
db(-------------------)
ab(-------------------)
Db(-------------------)

second verse x4
eb(------------------------------)
bb(--888888-666666-555555-333333-)
gb(------------------------------)
db(------------------------------)
ab(------------------------------)
Db(------------------------------)

pre-chorus x4
eb(--13----)
bb(--------)
gb(--------)
db(-----15-)
ab(--------)
Db(--------)

breakdown x2 (x2)
eb(--------------------------)(----------------------------)
bb(--------------------------)(----------------------------)
gb(--------333-3-------555-5-)(--------333-3---------------)
db(--000-0-333-3-000-0-555-5-)(--000-0-333-3-111-1---------)
ab(--000-0-111-1-000-0-333-3-)(--000-0-111-1-111-1-----3-5-)
Db(--000-0-------000-0-------)(--000-0-------111-1-1-3-----)

breakdown continued (x2)
eb(-------------)(----------------------------)
bb(-------------)(--8-8-8-88-8-8-7-7-7-77-7-7-)
gb(-------------)(--9-9-9-99-9-9-8-8-8-88-8-8-)
db(--0-0-0-00-0-)(--0-0-0-00-0-0-0-0-0-00-0-0-)
ab(--0-0-0-00-0-)(--0-0-0-00-0-0-0-0-0-00-0-0-)
Db(--0-0-0-00-0-)(--0-0-0-00-0-0-0-0-0-00-0-0-)

ACORDES PARA GUITARRA

PIANO UKELELE


COMENTARIOS

Aún no hay comentarios,

¡escribe el primero!

Escribe una pregunta, duda o comentario sobre esta canción, te responderemos a la brevedad.

Las más tocadas de 10 Years

Toca una Canción al Azar de 10 Years