The Wicked Ones
10 Years
Acordes

Subida por salvador
Álbum: Feeding the Wolves ( 2010)



Cambiar Cifrado
Americano Latino

Cambiar Tonalidad
-1 +1

Partir Pantalla Imprimir FAQ

+A
-A
Intro:
(3x)
E|-----------------|------------------|
B|-----------------|------------------|
G|-----------------|------------------|
D|-------------3p0-|-3-3-3-3-3-2-2-2--|
A|---3p0-0-3p0-----|-1-1-1-1-1-0-0-0--|
D|-0---------------|------------------|

Verso:
(3x)
E|-----------------|------------------|------------------|
B|-----------------|------------------|------------------|
G|-----------------|-----------------o|-----------------o|
D|-------------3p0-|-3-3-3-3-3-2-2-2--|-3-3-3-3-3-5-5-5--| (2x)
A|---3p0-0-3p0-----|-1-1-1-1-1-0-0-0-o|-1-1-1-1-1-3-3-3-o|
D|-0---------------|------------------|------------------|
(3x)
E|-------------------------------------|-------------------------|
B|-------------------------------------|-------------------------|
G|-------10-10-9-7---------------------|-------------------------|
D|-0-0-0-------------------------------|-------------------------|
A|-0-0-0-8--8--7-5-10-10-10-10-8-8-8-8-|-------------------------|
D|-0-0-0-----------10-10-10-10-8-8-8-8-|-0-3-3-0-3-3-0-3-5-0-3-5-|

Refrão:
E|-----------------------------------------------|
B|-----------------------------------------------|
G|-----------------------------------------------|
D|-0-0-0-10-10-0-0-0-8-8-0-0---------------------| (4x)
A|-0-0-0-10-10-0-0-0-8-8-0-0---------------------|
D|-0-0-0-10-10-0-0-0-8-8-0-0-0-5-5-3-3-5-5-10-10-|

Ponte:
E|------------------------------|
B|------------------------------|
G|------------------------------|
D|------------------------------| (4x)
A|-0-0-0--0-0-0--0-0-0------3h5-|
D|-0-0-0--0-0-0--0-0-0---3h5----|

E|------------------------------------------------|
B|------------------------------------------------|
G|------------------------------------------------|
D|------------------------------------------------| (3x)
A|------------5-------------------------------3h5-|
D|-0-0-0--3h5---0--0--3h5-3-0--0--3h5-3p0-3h5-----|

E|------------------------------------|
B|------------------------------------|
G|------------------------------------|
D|------------------------------------|
A|------------5-----------------------|
D|-0-0-0--3h5---0--0--3h5-3-0--0--3h5-|

Final:
E|------------------------------------------------|
B|------------------------------------------------|
G|------------------------------------------------|
D|------------------------------------------------| (2x)
A|------------5-------------------------------3h5-|
D|-0-0-0--3h5---0--0--3h5-3-0--0--3h5-3p0-3h5-----|

ACORDES PARA GUITARRA

PIANO UKELELE


COMENTARIOS

Aún no hay comentarios,

¡escribe el primero!

Escribe una pregunta, duda o comentario sobre esta canción, te responderemos a la brevedad.

Las más tocadas de 10 Years

Toca una Canción al Azar de 10 Years